Tabs/chords If I Am A Stranger...

  • Author: Baffy
  • 6/7/05 8:54:30 AM

Anyone got dem?
________________________________________

Baffy's inner rock star:

Re: Tabs/chords If I Am A Stranger...

Damn you baffy - I got all excited then thinking you had posted them.

And damn everyone else and me for not supporting www.altcountrytab.com cos that site rocked (fuck I'm NBritish and I have started writing like an american)
__________________________________

This is our last goodbye, I hate to feel the love between us die'

Re: Tabs/chords If I Am A Stranger...

  • Author: wendy
  • 6/7/05 9:25:30 AM

dont have it all figured out but i think the chords are pretty much:

am C F G(?)

G am F


"There is no reality!"

Image hosted by Photobucket.com

Re: Tabs/chords If I Am A Stranger...

  • Author: georgew
  • 6/7/05 10:28:58 AM

from www.iseemonsters.tk

Ryan Adams ~ If I'm A Stranger
...............................
Tabbed by Sebastian S.
Capo at 2nd (LP version)
Capo at 3rd (Cold Roses version)






Chords used:
Em7 C D* Cmaj7


e--0----0----0----0--------
B--3----1----3----0--------
G--0----0----0----0--------
D--2----2----4----2--------
A--2----3----5----3--------
E--0----3----5----3--------


Intro Lick played with chords:


Em7 G C Cmaj7 Em7
e---0-----0-----(0)--(0)--(0)-----------------------------------
B---0h3---3s5----5----3----0------------------------------------
G---------------------------------------------------------------
D---------------------------------------------------------------
A---------------------------------0-2----3---3------3-----------
E-------------------------------3----------3------3---3----3-2-0


Intro by Thomas Young:


--0---0--0-----------------------------------------------------------------------
--3-/-5--5----5--3--0------------------------------------------------------------
-----------------------2--4-------0---2--4----------0--2--4--0-------------------
-----------------------------0h2------------2--0h2-------------------------------
----------------------------------------------------------------3--2--0----------
-------------------------------------------------------------------------3--0----


Play all above twice.


Intro:2x Em7 G C Cmaj7


Verse 1:
Em7 G
for all the hours here that move too slow
C Cmaj7
there's all this letting go that won't pass.
Em7 G
if all this love is real how will we know?
C D*
if i'm only scared of losing it how will it last?


Chorus:
Em(7) G C G
if i am a stranger now to you
C G
i will always be,
C D*
i will always be
Em(7) G C G
stronger now than me stronger than you.
C G
love will always be
C D*
and if we let it go
D* C
i will try to be there for you, if i can. what if i can't?


Instrumental Part: G Em(7) C G G Em7 C



Verse 2:
Em7 G
today is yesterday when you don't know.
C Cmaj7
out to rebuild the walls that someone has knocked down.
Em7 G
to tell the truth, it's hard enough without a lover
C
you want to hide your darknes from so you won't let em down.


Chorus 2:
Em(7) G C G
if i am a stranger now to you
C G
i will always be,
C D*
i will always be
Em(7) G C G
stronger now than me stronger than you.
C G
love will always be
C D*
and if you let it go
C
i will try to be there for you, if i can. what if i can't?


Instrumental Part:2x G Em(7) C G G Em7 C


Verse 3:
Em7 G
for all the hours here that move too slow
C Cmaj7
there's all this letting go that won't pass.
Em7 G
if all this love is real how will we know?
C D*
if i'm only scared of losing it how will it last?


Chorus:
Em(7) G C G
if i am a stranger now to you
C G
i will always be,
C D*
i will always be
Em(7) G C G
stronger now than me stronger than you.
C G
love will always be
C D*
and if we let it go
D* C
i will try to be there for you,
D*
i will try to be there for you,
C
i will try to be there for you,


if i can...what if i can't?


Play Outro(aproximately like Intro)

Re: Tabs/chords If I Am A Stranger...

  • Author: Baffy
  • 6/8/05 3:30:23 AM

Awesome, fanks Dubya!
________________________________________

Baffy's inner rock star:

Re: Tabs/chords If I Am A Stranger...

  • Author: Baffy
  • 6/8/05 3:34:44 AM

Sorry shakes, KIK!!!!!!!!!!!!!

Them be here now though!
________________________________________

Baffy's inner rock star:

Subject  
Body  
   
Username  
Password